Go Back   the Magicball Network > Forums > Fan Creations > Fan Music
Buy LBA1/Relentless from GOG.com Buy LBA1/Relentless from DotEmu Buy LBA2/Twinsen's Odyssey from DotEmu Buy LBA2/Twinsen's Odyssey from GOG.com Buy Little big Adventure from GOG.com or DotEmu Buy Little big Adventure 2 from DotEmu or GOG.com

Welcome to the Magicball Network.

You are currently viewing our site as a guest which gives you limited access to view most discussions and access our other features. By joining our free community you will have access to post topics, communicate privately with other members (PM), respond to polls, upload content and access many other special features. Registration is fast, simple and absolutely free so please, join our community today!

If you have any problems with the registration process or your account login, please contact contact us.

Fan Music The place for all your music creations

Reply
 
Thread Tools
  #1  
Old 2010-06-09, 16:36
Abne Abne is offline
Magic Level: Yellow Ball
 
Join Date: Jan 2010
Posts: 19
Thumbs Up Lba theme: Guitar Tap xD

LBA Theme: guitar tab
Transcribed by Keds

Intro (& outro)

E|-1-1--3-6------6------6-----6----4-3-----6-------------------
B|-------------4---4------4h6----6----4-6-------6-4------------
G|-------------------------------------------------------------
D|-------------------------------------------------------------
A|-------------------------------------------------------------
E|-------------------------------------------------------------

E|-1-1--3-6------6------6-----6----4-3-----6-------------------
B|-------------4---4------4h6----6----4-6-------6/(8)--8--6/8--
G|-------------------------------------------------------------
D|-------------------------------------------------------------
A|-------------------------------------------------------------
E|-------------------------------------------------------------


Chorus (Main part)

X6 X2 X2
E|-------------------|------------------|------------------|
B|-------------------|------------------|------------------|
G|-------------3-----|--3b--------------|-------------3----|
D|--1-1h3--3/5---5---|-----6-5-3--5-6---|--1-1h3--3/5---5--|
A|-------------------|------------------|------------------|
E|-------------------|------------------|------------------|

Bridge (Flute part)

A# G F G G# G F G A# G F G G# A# G A#
E|----------------------------|-------------------------
B|----------------------------|-------------------------
G|--3b-3----------------------|--3b-3--------------3----
D|--------5--3b-5--6---5p3h5--|--------5--3-5-6--5---5--
A|----------------------------|-------------------------
E|----------------------------|-------------------------

Horn Part: I'm not positive about this, transcribing a whole brass section to guitar isn't easy

E|--------------------------------------------------------------
B|--------------------------------------------------------------
G|-------------3h5-------3-------3------3------3----------------
D|--1-1-1-3/5-------6--5---5---6---5--6---5--6---5---66--5h3p5--
A|--------------------------------------------------------------
E|--------------------------------------------------------------
And repeat

Quiet section (I just transposed the notes from the flute section up)

E|--6--3--1--3-4--3p1h3----6--3--1----/6--3h6p3----
Reply With Quote
Reply

Tags
guitar, lba, little big adventure, tap

Thread Tools

Posting Rules
You may not post new threads
You may not post replies
You may not post attachments
You may not edit your posts

BB code is On
Smilies are On
[IMG] code is On
HTML code is Off

Forum Jump

Similar Threads
Thread Thread Starter Forum Replies Last Post
A Watermelon Guitar SpaceGuitarist Off topic 45 2009-07-09 21:33
LBA Guitar Tab Keds Fan Creations - General 13 2007-02-04 03:36
LBA's theme. guitar tabs Gizmo flash Fan Music 1 2006-03-16 18:31
A Guitar Xakep_INC Fan Art 12 2004-04-30 01:42
Guitar Raymond_the_elf Fan Music 4 2002-12-22 16:34


All times are GMT +2. The time now is 00:24.


News Feed
Powered by vBulletin®
Copyright ©2000 - 2019, Jelsoft Enterprises Ltd.
Copyright ©2000 - 2019, the Magicball Network